  0
SECTION
  2
HEADER
  9
$ACADVER
  1
AC1009
  9
$LUNITS
  70
2
  9
$LIMMIN
  10
121512.91
  20
119506.20
  9
$LIMMAX
  10
122750.01
  20
120642.32
  9
$EXTMIN
  10
121512.91
  20
119506.20
  9
$EXTMAX
  10
122750.01
  20
120642.32
  999
Created by Global Mapper
  999
Projection: UTM
  999
Datum: NAD83
  999
Ground Units: meters
  999
ZONE: 15
  0
ENDSEC
  0
SECTION
  2
BLOCKS
  0
BLOCK
  8
FeatureAttribs
  70
0
  2
FEATURE
  3
FEATURE
  10
0.00000000
  20
0.00000000
  0
ATTDEF
  8
FeatureAttribs
  70
0
  1
 
  2
NAME
  3
NAME
  10
0.00000000
  20
0.00000000
  40
1.00000000
  0
ENDBLK
  0
ENDSEC
  0
SECTION
  2
ENTITIES
  0
POLYLINE
  8
EASEMENT
  70
1
  66
1
  0
VERTEX
  8
EASEMENT
  10
122018.96
  20
120080.45
  0
VERTEX
  8
EASEMENT
  10
122100.69
  20
119987.49
  0
VERTEX
  8
EASEMENT
  10
122003.02
  20
119916.64
  0
VERTEX
  8
EASEMENT
  10
121900.68
  20
119875.48
  0
VERTEX
  8
EASEMENT
  10
121931.48
  20
119798.90
  0
VERTEX
  8
EASEMENT
  10
121957.50
  20
119787.81
  0
VERTEX
  8
EASEMENT
  10
122063.67
  20
119830.51
  0
VERTEX
  8
EASEMENT
  10
122134.26
  20
119872.35
  0
VERTEX
  8
EASEMENT
  10
122316.79
  20
120022.23
  0
VERTEX
  8
EASEMENT
  10
122317.48
  20
120029.27
  0
VERTEX
  8
EASEMENT
  10
122276.85
  20
120053.54
  0
VERTEX
  8
EASEMENT
  10
122158.59
  20
120104.97
  0
VERTEX
  8
EASEMENT
  10
122093.22
  20
120152.32
  0
VERTEX
  8
EASEMENT
  10
122086.41
  20
120151.42
  0
VERTEX
  8
EASEMENT
  10
122018.96
  20
120080.45
  0
SEQEND
  8
EASEMENT
  0
POLYLINE
  8
EASEMENT
  70
1
  66
1
  0
VERTEX
  8
EASEMENT
  10
121863.22
  20
120436.94
  0
VERTEX
  8
EASEMENT
  10
121776.17
  20
120300.38
  0
VERTEX
  8
EASEMENT
  10
121867.50
  20
120241.62
  0
VERTEX
  8
EASEMENT
  10
121968.99
  20
120115.73
  0
VERTEX
  8
EASEMENT
  10
122077.09
  20
120239.84
  0
VERTEX
  8
EASEMENT
  10
122166.74
  20
120379.17
  0
VERTEX
  8
EASEMENT
  10
122165.24
  20
120386.08
  0
VERTEX
  8
EASEMENT
  10
122124.24
  20
120412.46
  0
VERTEX
  8
EASEMENT
  10
122079.31
  20
120426.69
  0
VERTEX
  8
EASEMENT
  10
121883.97
  20
120434.86
  0
VERTEX
  8
EASEMENT
  10
121863.22
  20
120436.94
  0
SEQEND
  8
EASEMENT
  0
POLYLINE
  8
EASEMENT
  70
1
  66
1
  0
VERTEX
  8
EASEMENT
  10
121845.60
  20
119851.63
  0
VERTEX
  8
EASEMENT
  10
121758.65
  20
119800.65
  0
VERTEX
  8
EASEMENT
  10
121813.88
  20
119663.34
  0
VERTEX
  8
EASEMENT
  10
121807.93
  20
119544.25
  0
VERTEX
  8
EASEMENT
  10
122012.88
  20
119618.06
  0
VERTEX
  8
EASEMENT
  10
122025.80
  20
119516.43
  0
VERTEX
  8
EASEMENT
  10
122223.95
  20
119587.79
  0
VERTEX
  8
EASEMENT
  10
122543.56
  20
119819.52
  0
VERTEX
  8
EASEMENT
  10
122667.24
  20
119850.46
  0
VERTEX
  8
EASEMENT
  10
122732.07
  20
120403.11
  0
VERTEX
  8
EASEMENT
  10
122600.91
  20
120469.83
  0
VERTEX
  8
EASEMENT
  10
122268.13
  20
120425.87
  0
VERTEX
  8
EASEMENT
  10
122127.55
  20
120207.37
  0
VERTEX
  8
EASEMENT
  10
122128.82
  20
120200.62
  0
VERTEX
  8
EASEMENT
  10
122193.79
  20
120153.56
  0
VERTEX
  8
EASEMENT
  10
122288.39
  20
120112.42
  0
VERTEX
  8
EASEMENT
  10
122363.85
  20
120067.35
  0
VERTEX
  8
EASEMENT
  10
122370.88
  20
120066.66
  0
VERTEX
  8
EASEMENT
  10
122446.55
  20
120128.79
  0
VERTEX
  8
EASEMENT
  10
122448.36
  20
120132.31
  0
VERTEX
  8
EASEMENT
  10
122488.43
  20
120083.52
  0
VERTEX
  8
EASEMENT
  10
122484.62
  20
120082.42
  0
VERTEX
  8
EASEMENT
  10
122172.34
  20
119825.98
  0
VERTEX
  8
EASEMENT
  10
122086.06
  20
119774.85
  0
VERTEX
  8
EASEMENT
  10
122018.05
  20
119747.49
  0
VERTEX
  8
EASEMENT
  10
121992.00
  20
119731.76
  0
VERTEX
  8
EASEMENT
  10
121975.50
  20
119717.75
  0
VERTEX
  8
EASEMENT
  10
121868.54
  20
119763.35
  0
VERTEX
  8
EASEMENT
  10
121867.24
  20
119784.78
  0
VERTEX
  8
EASEMENT
  10
121860.55
  20
119814.47
  0
VERTEX
  8
EASEMENT
  10
121845.60
  20
119851.63
  0
SEQEND
  8
EASEMENT
  0
POLYLINE
  8
PRO-TBC
  70
1
  66
1
  0
VERTEX
  8
PRO-TBC
  10
122003.13
  20
120087.11
  0
VERTEX
  8
PRO-TBC
  10
122114.09
  20
120216.03
  0
VERTEX
  8
PRO-TBC
  10
122254.67
  20
120434.53
  0
VERTEX
  8
PRO-TBC
  10
122611.65
  20
120481.68
  0
VERTEX
  8
PRO-TBC
  10
122741.69
  20
120417.54
  0
VERTEX
  8
PRO-TBC
  10
122746.71
  20
120445.08
  0
VERTEX
  8
PRO-TBC
  10
122630.46
  20
120502.42
  0
VERTEX
  8
PRO-TBC
  10
122231.12
  20
120449.68
  0
VERTEX
  8
PRO-TBC
  10
122218.07
  20
120429.38
  0
VERTEX
  8
PRO-TBC
  10
122189.04
  20
120423.09
  0
VERTEX
  8
PRO-TBC
  10
122148.05
  20
120449.46
  0
VERTEX
  8
PRO-TBC
  10
122081.14
  20
120470.65
  0
VERTEX
  8
PRO-TBC
  10
122081.14
  20
120470.65
  0
VERTEX
  8
PRO-TBC
  10
121885.81
  20
120478.82
  0
VERTEX
  8
PRO-TBC
  10
121867.12
  20
120480.90
  0
VERTEX
  8
PRO-TBC
  10
121862.10
  20
120453.36
  0
VERTEX
  8
PRO-TBC
  10
121884.64
  20
120450.85
  0
VERTEX
  8
PRO-TBC
  10
122079.98
  20
120442.68
  0
VERTEX
  8
PRO-TBC
  10
122132.90
  20
120425.91
  0
VERTEX
  8
PRO-TBC
  10
122173.89
  20
120399.54
  0
VERTEX
  8
PRO-TBC
  10
122180.19
  20
120370.51
  0
VERTEX
  8
PRO-TBC
  10
122090.55
  20
120231.18
  0
VERTEX
  8
PRO-TBC
  10
121984.64
  20
120108.13
  0
VERTEX
  8
PRO-TBC
  10
122003.13
  20
120087.11
  0
SEQEND
  8
PRO-TBC
  0
POLYLINE
  8
LOTS
  30
0
  66
1
 62
2
 39
1
  0
VERTEX
  8
LOTS
  10
122140.60
  20
119864.62
  0
VERTEX
  8
LOTS
  10
122151.73
  20
119873.76
  0
SEQEND
  8
LOTS
  0
POLYLINE
  8
LOTS
  30
0
  66
1
 62
2
 39
1
  0
VERTEX
  8
LOTS
  10
122072.26
  20
119976.13
  0
VERTEX
  8
LOTS
  10
122151.73
  20
119873.76
  0
SEQEND
  8
LOTS
  0
POLYLINE
  8
PL
  30
0
  66
1
 62
4
 39
1
  0
VERTEX
  8
PL
  10
122019.54
  20
119506.20
  0
VERTEX
  8
PL
  10
122227.49
  20
119581.09
  0
SEQEND
  8
PL
  0
POLYLINE
  8
CL
  30
0
  66
1
 62
1
 39
1
  0
VERTEX
  8
CL
  10
122083.66
  20
120196.29
  0
VERTEX
  8
CL
  10
122176.19
  20
120129.27
  0
SEQEND
  8
CL
  0
POLYLINE
  8
PL
  30
0
  66
1
 62
4
 39
1
  0
VERTEX
  8
PL
  10
121902.77
  20
120634.24
  0
VERTEX
  8
PL
  10
121820.24
  20
120505.97
  0
SEQEND
  8
PL
  0
POLYLINE
  8
CL
  30
0
  66
1
 62
1
 39
1
  0
VERTEX
  8
CL
  10
122057.35
  20
120634.24
  0
VERTEX
  8
CL
  10
122028.54
  20
120589.45
  0
SEQEND
  8
CL
  0
POLYLINE
  8
LOTS
  30
0
  66
1
 62
2
 39
1
  0
VERTEX
  8
LOTS
  10
122211.94
  20
120634.24
  0
VERTEX
  8
LOTS
  10
122108.14
  20
120472.92
  0
SEQEND
  8
LOTS
  0
POLYLINE
  8
CL
  30
0
  66
1
 62
1
 39
1
  0
VERTEX
  8
CL
  10
122102.32
  20
120223.61
  0
VERTEX
  8
CL
  10
122242.90
  20
120442.10
  0
SEQEND
  8
CL
  0
POLYLINE
  8
LOTS
  30
0
  66
1
 62
2
 39
1
  0
VERTEX
  8
LOTS
  10
122192.21
  20
120095.28
  0
VERTEX
  8
LOTS
  10
122089.62
  20
119988.72
  0
SEQEND
  8
LOTS
  0
POLYLINE
  8
PL
  30
0
  66
1
 62
4
 39
1
  0
VERTEX
  8
PL
  10
122019.54
  20
119506.20
  0
VERTEX
  8
PL
  10
122006.62
  20
119607.83
  0
SEQEND
  8
PL
  0
POLYLINE
  8
CL
  30
0
  66
1
 62
1
 39
1
  0
VERTEX
  8
CL
  10
121700.68
  20
120560.40
  0
VERTEX
  8
CL
  10
121809.28
  20
120489.24
  0
SEQEND
  8
CL
  0
POLYLINE
  8
CL
  30
0
  66
1
 62
1
 39
1
  0
VERTEX
  8
CL
  10
121885.22
  20
120464.83
  0
VERTEX
  8
CL
  10
122080.56
  20
120456.66
  0
SEQEND
  8
CL
  0
POLYLINE
  8
ADJ
  30
0
  66
1
 62
7
 39
1
  0
VERTEX
  8
ADJ
  10
121765.83
  20
120298.11
  0
VERTEX
  8
ADJ
  10
121512.91
  20
120460.84
  0
SEQEND
  8
ADJ
  0
POLYLINE
  8
ADJ
  30
0
  66
1
 62
7
 39
1
  0
VERTEX
  8
ADJ
  10
121843.38
  20
120634.24
  0
VERTEX
  8
ADJ
  10
121885.38
  20
120607.22
  0
SEQEND
  8
ADJ
  0
POLYLINE
  8
ADJ
  30
0
  66
1
 62
7
 39
1
  0
VERTEX
  8
ADJ
  10
121624.48
  20
120634.24
  0
VERTEX
  8
ADJ
  10
121682.12
  20
120596.47
  0
SEQEND
  8
ADJ
  0
POLYLINE
  8
ADJ
  30
0
  66
1
 62
7
 39
1
  0
VERTEX
  8
ADJ
  10
121724.41
  20
120634.24
  0
VERTEX
  8
ADJ
  10
121702.96
  20
120600.90
  0
SEQEND
  8
ADJ
  0
POLYLINE
  8
ADJ
  30
0
  66
1
 62
7
 39
1
  0
VERTEX
  8
ADJ
  10
121771.97
  20
120634.24
  0
VERTEX
  8
ADJ
  10
121736.28
  20
120578.77
  0
SEQEND
  8
ADJ
  0
POLYLINE
  8
ADJ
  30
0
  66
1
 62
7
 39
1
  0
VERTEX
  8
ADJ
  10
121740.67
  20
120558.10
  0
VERTEX
  8
ADJ
  10
121820.24
  20
120505.97
  0
SEQEND
  8
ADJ
  0
POLYLINE
  8
ADJ
  30
0
  66
1
 62
7
 39
1
  0
VERTEX
  8
ADJ
  10
121798.31
  20
120472.51
  0
VERTEX
  8
ADJ
  10
121770.12
  20
120490.98
  0
SEQEND
  8
ADJ
  0
POLYLINE
  8
ADJ
  30
0
  66
1
 62
7
 39
1
  0
VERTEX
  8
ADJ
  10
121770.12
  20
120490.98
  0
VERTEX
  8
ADJ
  10
121681.11
  20
120352.62
  0
SEQEND
  8
ADJ
  0
POLYLINE
  8
ADJ
  30
0
  66
1
 62
7
 39
1
  0
VERTEX
  8
ADJ
  10
121686.48
  20
120545.79
  0
VERTEX
  8
ADJ
  10
121770.12
  20
120490.98
  0
SEQEND
  8
ADJ
  0
POLYLINE
  8
ADJ
  30
0
  66
1
 62
7
 39
1
  0
VERTEX
  8
ADJ
  10
121597.01
  20
120406.73
  0
VERTEX
  8
ADJ
  10
121686.48
  20
120545.79
  0
SEQEND
  8
ADJ
  0
POLYLINE
  8
PL
  30
0
  66
1
 62
4
 39
1
  0
VERTEX
  8
PL
  10
121861.03
  20
120447.45
  0
VERTEX
  8
PL
  10
121765.83
  20
120298.11
  0
SEQEND
  8
PL
  0
POLYLINE
  8
ADJ
  30
0
  66
1
 62
7
 39
1
  0
VERTEX
  8
ADJ
  10
121602.83
  20
120600.60
  0
VERTEX
  8
ADJ
  10
121686.48
  20
120545.79
  0
SEQEND
  8
ADJ
  0
POLYLINE
  8
PL
  30
0
  66
1
 62
4
 39
1
  0
VERTEX
  8
PL
  10
121861.03
  20
120447.45
  0
VERTEX
  8
PL
  10
121868.19
  20
120486.81
  0
SEQEND
  8
PL
  0
POLYLINE
  8
ADJ
  30
0
  66
1
 62
7
 39
1
  0
VERTEX
  8
ADJ
  10
121828.91
  20
120177.40
  0
VERTEX
  8
ADJ
  10
121652.76
  20
120208.97
  0
SEQEND
  8
ADJ
  0
POLYLINE
  8
ADJ
  30
0
  66
1
 62
7
 39
1
  0
VERTEX
  8
ADJ
  10
121703.63
  20
120338.13
  0
VERTEX
  8
ADJ
  10
121638.02
  20
120244.77
  0
SEQEND
  8
ADJ
  0
POLYLINE
  8
PL
  30
0
  66
1
 62
4
 39
1
  0
VERTEX
  8
PL
  10
121862.42
  20
120235.97
  0
VERTEX
  8
PL
  10
121969.54
  20
120103.10
  0
SEQEND
  8
PL
  0
POLYLINE
  8
ADJ
  30
0
  66
1
 62
7
 39
1
  0
VERTEX
  8
ADJ
  10
121815.70
  20
120154.32
  0
VERTEX
  8
ADJ
  10
121828.91
  20
120177.40
  0
SEQEND
  8
ADJ
  0
POLYLINE
  8
ADJ
  30
0
  66
1
 62
7
 39
1
  0
VERTEX
  8
ADJ
  10
121828.91
  20
120177.40
  0
VERTEX
  8
ADJ
  10
121862.42
  20
120235.97
  0
SEQEND
  8
ADJ
  0
POLYLINE
  8
PL
  30
0
  66
1
 62
4
 39
1
  0
VERTEX
  8
PL
  10
121862.42
  20
120235.97
  0
VERTEX
  8
PL
  10
121765.83
  20
120298.11
  0
SEQEND
  8
PL
  0
POLYLINE
  8
ADJ
  30
0
  66
1
 62
7
 39
1
  0
VERTEX
  8
ADJ
  10
121635.81
  20
120065.82
  0
VERTEX
  8
ADJ
  10
121679.93
  20
119956.15
  0
SEQEND
  8
ADJ
  0
POLYLINE
  8
PL
  30
0
  66
1
 62
4
 39
1
  0
VERTEX
  8
PL
  10
122089.62
  20
119988.72
  0
VERTEX
  8
PL
  10
121999.37
  20
119923.25
  0
SEQEND
  8
PL
  0
POLYLINE
  8
ADJ
  30
0
  66
1
 62
7
 39
1
  0
VERTEX
  8
ADJ
  10
121935.42
  20
120028.28
  0
VERTEX
  8
ADJ
  10
121999.37
  20
119923.25
  0
SEQEND
  8
ADJ
  0
POLYLINE
  8
ADJ
  30
0
  66
1
 62
7
 39
1
  0
VERTEX
  8
ADJ
  10
121749.28
  20
119803.85
  0
VERTEX
  8
ADJ
  10
121701.82
  20
119921.84
  0
SEQEND
  8
ADJ
  0
POLYLINE
  8
ADJ
  30
0
  66
1
 62
7
 39
1
  0
VERTEX
  8
ADJ
  10
121851.50
  20
119863.78
  0
VERTEX
  8
ADJ
  10
121816.15
  20
119951.66
  0
SEQEND
  8
ADJ
  0
POLYLINE
  8
ADJ
  30
0
  66
1
 62
7
 39
1
  0
VERTEX
  8
ADJ
  10
121888.61
  20
119878.70
  0
VERTEX
  8
ADJ
  10
121852.90
  20
119967.48
  0
SEQEND
  8
ADJ
  0
POLYLINE
  8
ADJ
  30
0
  66
1
 62
7
 39
1
  0
VERTEX
  8
ADJ
  10
121777.34
  20
119995.33
  0
VERTEX
  8
ADJ
  10
121814.18
  20
120010.15
  0
SEQEND
  8
ADJ
  0
POLYLINE
  8
ADJ
  30
0
  66
1
 62
7
 39
1
  0
VERTEX
  8
ADJ
  10
121679.93
  20
119956.15
  0
VERTEX
  8
ADJ
  10
121777.34
  20
119995.33
  0
SEQEND
  8
ADJ
  0
POLYLINE
  8
PL
  30
0
  66
1
 62
4
 39
1
  0
VERTEX
  8
PL
  10
121806.31
  20
119662.07
  0
VERTEX
  8
PL
  10
121749.28
  20
119803.85
  0
SEQEND
  8
PL
  0
POLYLINE
  8
PL
  30
0
  66
1
 62
4
 39
1
  0
VERTEX
  8
PL
  10
121799.88
  20
119533.38
  0
VERTEX
  8
PL
  10
122006.62
  20
119607.83
  0
SEQEND
  8
PL
  0
POLYLINE
  8
PL
  30
0
  66
1
 62
4
 39
1
  0
VERTEX
  8
PL
  10
121806.31
  20
119662.07
  0
VERTEX
  8
PL
  10
121799.88
  20
119533.38
  0
SEQEND
  8
PL
  0
POLYLINE
  8
PL
  30
0
  66
1
 62
4
 39
1
  0
VERTEX
  8
PL
  10
121749.28
  20
119803.85
  0
VERTEX
  8
PL
  10
121851.50
  20
119863.78
  0
SEQEND
  8
PL
  0
POLYLINE
  8
PL
  30
0
  66
1
 62
4
 39
1
  0
VERTEX
  8
PL
  10
121999.37
  20
119923.25
  0
VERTEX
  8
PL
  10
121851.50
  20
119863.78
  0
SEQEND
  8
PL
  0
POLYLINE
  8
ADJ
  30
0
  66
1
 62
7
 39
1
  0
VERTEX
  8
ADJ
  10
121815.70
  20
120154.32
  0
VERTEX
  8
ADJ
  10
121881.44
  20
120042.37
  0
SEQEND
  8
ADJ
  0
POLYLINE
  8
ADJ
  30
0
  66
1
 62
7
 39
1
  0
VERTEX
  8
ADJ
  10
121726.96
  20
120110.66
  0
VERTEX
  8
ADJ
  10
121777.34
  20
119995.33
  0
SEQEND
  8
ADJ
  0
POLYLINE
  8
PL
  30
0
  66
1
 62
4
 39
1
  0
VERTEX
  8
PL
  10
121980.68
  20
120112.64
  0
VERTEX
  8
PL
  10
122089.62
  20
119988.72
  0
SEQEND
  8
PL
  0
POLYLINE
  8
ADJ
  30
0
  66
1
 62
7
 39
1
  0
VERTEX
  8
ADJ
  10
121652.65
  20
120074.11
  0
VERTEX
  8
ADJ
  10
121815.70
  20
120154.32
  0
SEQEND
  8
ADJ
  0
POLYLINE
  8
LOTS
  30
0
  66
1
 62
2
 39
1
  0
VERTEX
  8
LOTS
  10
121904.79
  20
120260.84
  0
VERTEX
  8
LOTS
  10
121959.48
  20
120441.71
  0
SEQEND
  8
LOTS
  0
POLYLINE
  8
LOTS
  30
0
  66
1
 62
2
 39
1
  0
VERTEX
  8
LOTS
  10
121862.42
  20
120235.97
  0
VERTEX
  8
LOTS
  10
122023.16
  20
120330.34
  0
SEQEND
  8
LOTS
  0
POLYLINE
  8
LOTS
  30
0
  66
1
 62
2
 39
1
  0
VERTEX
  8
LOTS
  10
121969.03
  20
119725.37
  0
VERTEX
  8
LOTS
  10
121985.53
  20
119739.39
  0
SEQEND
  8
LOTS
  0
POLYLINE
  8
CL
  30
0
  66
1
 62
1
 39
1
  0
VERTEX
  8
CL
  10
121870.05
  20
119871.24
  0
VERTEX
  8
CL
  10
121821.64
  20
119991.59
  0
SEQEND
  8
CL
  0
POLYLINE
  8
CL
  30
0
  66
1
 62
1
 39
1
  0
VERTEX
  8
CL
  10
121567.07
  20
119889.20
  0
VERTEX
  8
CL
  10
121821.64
  20
119991.59
  0
SEQEND
  8
CL
  0
POLYLINE
  8
LOTS
  30
0
  66
1
 62
2
 39
1
  0
VERTEX
  8
LOTS
  10
121999.37
  20
119923.25
  0
VERTEX
  8
LOTS
  10
122054.01
  20
119815.85
  0
SEQEND
  8
LOTS
  0
POLYLINE
  8
CL
  30
0
  66
1
 62
1
 39
1
  0
VERTEX
  8
CL
  10
122009.56
  20
120529.54
  0
VERTEX
  8
CL
  10
122006.64
  20
120459.76
  0
SEQEND
  8
CL
  0
POLYLINE
  8
CL
  30
0
  66
1
 62
1
 39
1
  0
VERTEX
  8
CL
  10
121613.65
  20
120617.42
  0
VERTEX
  8
CL
  10
121700.68
  20
120560.40
  0
SEQEND
  8
CL
  0
POLYLINE
  8
CL
  30
0
  66
1
 62
1
 39
1
  0
VERTEX
  8
CL
  10
121748.19
  20
120634.24
  0
VERTEX
  8
CL
  10
121700.68
  20
120560.40
  0
SEQEND
  8
CL
  0
POLYLINE
  8
LOTS
  30
0
  66
1
 62
2
 39
1
  0
VERTEX
  8
LOTS
  10
121806.31
  20
119662.07
  0
VERTEX
  8
LOTS
  10
121891.06
  20
119732.22
  0
SEQEND
  8
LOTS
  0
POLYLINE
  8
LOTS
  30
0
  66
1
 62
2
 39
1
  0
VERTEX
  8
LOTS
  10
121869.83
  20
119818.20
  0
VERTEX
  8
LOTS
  10
121851.50
  20
119863.78
  0
SEQEND
  8
LOTS
  0
POLYLINE
  8
CL
  30
0
  66
1
 62
1
 39
1
  0
VERTEX
  8
CL
  10
121903.65
  20
119787.71
  0
VERTEX
  8
CL
  10
121870.05
  20
119871.24
  0
SEQEND
  8
CL
  0
POLYLINE
  8
LOTS
  30
0
  66
1
 62
2
 39
1
  0
VERTEX
  8
LOTS
  10
121877.22
  20
119785.39
  0
VERTEX
  8
LOTS
  10
121878.52
  20
119763.96
  0
SEQEND
  8
LOTS
  0
POLYLINE
  8
LOTS
  30
0
  66
1
 62
2
 39
1
  0
VERTEX
  8
LOTS
  10
121978.64
  20
119597.76
  0
VERTEX
  8
LOTS
  10
121947.60
  20
119714.15
  0
SEQEND
  8
LOTS
  0
POLYLINE
  8
LOTS
  30
0
  66
1
 62
2
 39
1
  0
VERTEX
  8
LOTS
  10
121929.09
  20
120275.11
  0
VERTEX
  8
LOTS
  10
122051.46
  20
120186.96
  0
SEQEND
  8
LOTS
  0
POLYLINE
  8
CL
  30
0
  66
1
 62
1
 39
1
  0
VERTEX
  8
CL
  10
121968.70
  20
119759.98
  0
VERTEX
  8
CL
  10
122074.86
  20
119802.68
  0
SEQEND
  8
CL
  0
POLYLINE
  8
LOTS
  30
0
  66
1
 62
2
 39
1
  0
VERTEX
  8
LOTS
  10
122124.30
  20
120294.73
  0
VERTEX
  8
LOTS
  10
122023.16
  20
120330.34
  0
SEQEND
  8
LOTS
  0
POLYLINE
  8
LOTS
  30
0
  66
1
 62
2
 39
1
  0
VERTEX
  8
LOTS
  10
122023.16
  20
120330.34
  0
VERTEX
  8
LOTS
  10
122055.40
  20
120437.70
  0
SEQEND
  8
LOTS
  0
POLYLINE
  8
LOTS
  30
0
  66
1
 62
2
 39
1
  0
VERTEX
  8
LOTS
  10
122129.79
  20
120030.45
  0
VERTEX
  8
LOTS
  10
122236.42
  20
119943.30
  0
SEQEND
  8
LOTS
  0
POLYLINE
  8
LOTS
  30
0
  66
1
 62
2
 39
1
  0
VERTEX
  8
LOTS
  10
122286.70
  20
120231.42
  0
VERTEX
  8
LOTS
  10
122452.89
  20
120121.06
  0
SEQEND
  8
LOTS
  0
POLYLINE
  8
LOTS
  30
0
  66
1
 62
2
 39
1
  0
VERTEX
  8
LOTS
  10
122488.10
  20
120320.80
  0
VERTEX
  8
LOTS
  10
122489.99
  20
120164.89
  0
SEQEND
  8
LOTS
  0
POLYLINE
  8
LOTS
  30
0
  66
1
 62
2
 39
1
  0
VERTEX
  8
LOTS
  10
122353.70
  20
120336.94
  0
VERTEX
  8
LOTS
  10
122604.23
  20
120306.84
  0
SEQEND
  8
LOTS
  0
POLYLINE
  8
LOTS
  30
0
  66
1
 62
2
 39
1
  0
VERTEX
  8
LOTS
  10
122353.70
  20
120336.94
  0
VERTEX
  8
LOTS
  10
122243.89
  20
120406.68
  0
SEQEND
  8
LOTS
  0
POLYLINE
  8
LOTS
  30
0
  66
1
 62
2
 39
1
  0
VERTEX
  8
LOTS
  10
122286.70
  20
120231.42
  0
VERTEX
  8
LOTS
  10
122176.25
  20
120301.55
  0
SEQEND
  8
LOTS
  0
POLYLINE
  8
PL
  30
0
  66
1
 62
4
 39
1
  0
VERTEX
  8
PL
  10
122546.78
  20
119812.59
  0
VERTEX
  8
PL
  10
122227.49
  20
119581.09
  0
SEQEND
  8
PL
  0
POLYLINE
  8
CL
  30
0
  66
1
 62
1
 39
1
  0
VERTEX
  8
CL
  10
122362.87
  20
120021.26
  0
VERTEX
  8
CL
  10
122340.66
  20
120048.31
  0
SEQEND
  8
CL
  0
POLYLINE
  8
CL
  30
0
  66
1
 62
1
 39
1
  0
VERTEX
  8
CL
  10
122153.30
  20
119849.16
  0
VERTEX
  8
CL
  10
122517.44
  20
120148.19
  0
SEQEND
  8
CL
  0
POLYLINE
  8
LOTS
  30
0
  66
1
 62
2
 39
1
  0
VERTEX
  8
LOTS
  10
122219.69
  20
120125.89
  0
VERTEX
  8
LOTS
  10
122353.70
  20
120336.94
  0
SEQEND
  8
LOTS
  0
POLYLINE
  8
CL
  30
0
  66
1
 62
1
 39
1
  0
VERTEX
  8
CL
  10
122210.90
  20
120392.37
  0
VERTEX
  8
CL
  10
122140.47
  20
120437.69
  0
SEQEND
  8
CL
  0
POLYLINE
  8
LOTS
  30
0
  66
1
 62
2
 39
1
  0
VERTEX
  8
LOTS
  10
122524.35
  20
120634.24
  0
VERTEX
  8
LOTS
  10
122520.59
  20
120568.27
  0
SEQEND
  8
LOTS
  0
POLYLINE
  8
LOTS
  30
0
  66
1
 62
2
 39
1
  0
VERTEX
  8
LOTS
  10
122172.28
  20
120572.61
  0
VERTEX
  8
LOTS
  10
122260.79
  20
120496.31
  0
SEQEND
  8
LOTS
  0
POLYLINE
  8
LOTS
  30
0
  66
1
 62
2
 39
1
  0
VERTEX
  8
LOTS
  10
122333.38
  20
120548.82
  0
VERTEX
  8
LOTS
  10
122272.24
  20
120634.24
  0
SEQEND
  8
LOTS
  0
POLYLINE
  8
LOTS
  30
0
  66
1
 62
2
 39
1
  0
VERTEX
  8
LOTS
  10
122419.15
  20
120574.69
  0
VERTEX
  8
LOTS
  10
122397.68
  20
120634.24
  0
SEQEND
  8
LOTS
  0
POLYLINE
  8
LOTS
  30
0
  66
1
 62
2
 39
1
  0
VERTEX
  8
LOTS
  10
122647.36
  20
120634.24
  0
VERTEX
  8
LOTS
  10
122634.49
  20
120506.87
  0
SEQEND
  8
LOTS
  0
POLYLINE
  8
LOTS
  30
0
  66
1
 62
2
 39
1
  0
VERTEX
  8
LOTS
  10
122413.97
  20
120329.70
  0
VERTEX
  8
LOTS
  10
122373.33
  20
120522.54
  0
SEQEND
  8
LOTS
  0
POLYLINE
  8
LOTS
  30
0
  66
1
 62
2
 39
1
  0
VERTEX
  8
LOTS
  10
122509.19
  20
120318.26
  0
VERTEX
  8
LOTS
  10
122513.45
  20
120528.79
  0
SEQEND
  8
LOTS
  0
POLYLINE
  8
LOTS
  30
0
  66
1
 62
2
 39
1
  0
VERTEX
  8
LOTS
  10
122604.23
  20
120306.84
  0
VERTEX
  8
LOTS
  10
122635.23
  20
120455.32
  0
SEQEND
  8
LOTS
  0
POLYLINE
  8
PL
  30
0
  66
1
 62
4
 39
1
  0
VERTEX
  8
PL
  10
122740.62
  20
120411.63
  0
VERTEX
  8
PL
  10
122674.09
  20
119844.44
  0
SEQEND
  8
PL
  0
POLYLINE
  8
PRO-TBC
  66
1
 62
7
 39
1
  0
VERTEX
  8
PRO-TBC
  10
121983.32
  20
120109.64
  0
VERTEX
  8
PRO-TBC
  10
122088.87
  20
120232.26
  0
VERTEX
  8
PRO-TBC
  10
122178.51
  20
120371.60
  0
VERTEX
  8
PRO-TBC
  10
122172.81
  20
120397.86
  0
VERTEX
  8
PRO-TBC
  10
122131.82
  20
120424.23
  0
VERTEX
  8
PRO-TBC
  10
122079.89
  20
120440.68
  0
VERTEX
  8
PRO-TBC
  10
121884.55
  20
120448.85
  0
VERTEX
  8
PRO-TBC
  10
121861.74
  20
120451.39
  0
SEQEND
  8
PRO-TBC
  0
POLYLINE
  8
PRO-TBC
  66
1
 62
7
 39
1
  0
VERTEX
  8
PRO-TBC
  10
121867.48
  20
120482.87
  0
VERTEX
  8
PRO-TBC
  10
121885.89
  20
120480.82
  0
VERTEX
  8
PRO-TBC
  10
121972.34
  20
120477.20
  0
VERTEX
  8
PRO-TBC
  10
121992.12
  20
120495.39
  0
VERTEX
  8
PRO-TBC
  10
121993.57
  20
120530.20
  0
VERTEX
  8
PRO-TBC
  10
122015.08
  20
120598.11
  0
VERTEX
  8
PRO-TBC
  10
122038.33
  20
120634.24
  0
SEQEND
  8
PRO-TBC
  0
POLYLINE
  8
PRO-TBC
  66
1
 62
7
 39
1
  0
VERTEX
  8
PRO-TBC
  10
122076.38
  20
120634.24
  0
VERTEX
  8
PRO-TBC
  10
122041.99
  20
120580.79
  0
VERTEX
  8
PRO-TBC
  10
122025.54
  20
120528.87
  0
VERTEX
  8
PRO-TBC
  10
122024.09
  20
120494.06
  0
VERTEX
  8
PRO-TBC
  10
122042.28
  20
120474.28
  0
VERTEX
  8
PRO-TBC
  10
122081.23
  20
120472.65
  0
VERTEX
  8
PRO-TBC
  10
122149.13
  20
120451.14
  0
VERTEX
  8
PRO-TBC
  10
122190.13
  20
120424.77
  0
VERTEX
  8
PRO-TBC
  10
122216.39
  20
120430.47
  0
VERTEX
  8
PRO-TBC
  10
122229.44
  20
120450.76
  0
VERTEX
  8
PRO-TBC
  10
122631.80
  20
120503.91
  0
VERTEX
  8
PRO-TBC
  10
122747.06
  20
120447.05
  0
SEQEND
  8
PRO-TBC
  0
POLYLINE
  8
LOTS
  30
0
  66
1
 62
2
 39
1
  0
VERTEX
  8
LOTS
  10
122165.99
  20
119833.71
  0
VERTEX
  8
LOTS
  10
122296.92
  20
119631.43
  0
SEQEND
  8
LOTS
  0
POLYLINE
  8
LOTS
  30
0
  66
1
 62
2
 39
1
  0
VERTEX
  8
LOTS
  10
122058.75
  20
119774.64
  0
VERTEX
  8
LOTS
  10
122177.12
  20
119562.95
  0
SEQEND
  8
LOTS
  0
POLYLINE
  8
LOTS
  30
0
  66
1
 62
2
 39
1
  0
VERTEX
  8
LOTS
  10
122260.58
  20
119911.38
  0
VERTEX
  8
LOTS
  10
122397.73
  20
119704.52
  0
SEQEND
  8
LOTS
  0
POLYLINE
  8
LOTS
  30
0
  66
1
 62
2
 39
1
  0
VERTEX
  8
LOTS
  10
122355.40
  20
119989.24
  0
VERTEX
  8
LOTS
  10
122495.39
  20
119775.33
  0
SEQEND
  8
LOTS
  0
POLYLINE
  8
LOTS
  30
0
  66
1
 62
2
 39
1
  0
VERTEX
  8
LOTS
  10
122445.00
  20
120062.82
  0
VERTEX
  8
LOTS
  10
122607.46
  20
119827.77
  0
SEQEND
  8
LOTS
  0
POLYLINE
  8
LOTS
  30
0
  66
1
 62
2
 39
1
  0
VERTEX
  8
LOTS
  10
121888.61
  20
119878.70
  0
VERTEX
  8
LOTS
  10
121922.21
  20
119795.17
  0
SEQEND
  8
LOTS
  0
POLYLINE
  8
LOTS
  30
0
  66
1
 62
2
 39
1
  0
VERTEX
  8
LOTS
  10
121961.23
  20
119778.53
  0
VERTEX
  8
LOTS
  10
122054.01
  20
119815.85
  0
SEQEND
  8
LOTS
  0
POLYLINE
  8
LOTS
  30
0
  66
1
 62
2
 39
1
  0
VERTEX
  8
LOTS
  10
122014.31
  20
119756.77
  0
VERTEX
  8
LOTS
  10
122058.75
  20
119774.64
  0
SEQEND
  8
LOTS
  0
POLYLINE
  8
PRO-TBC
  66
1
 62
7
 39
1
  0
VERTEX
  8
PRO-TBC
  10
122075.78
  20
120634.24
  0
VERTEX
  8
PRO-TBC
  10
122041.57
  20
120581.06
  0
VERTEX
  8
PRO-TBC
  10
122025.04
  20
120528.89
  0
VERTEX
  8
PRO-TBC
  10
122023.59
  20
120494.08
  0
VERTEX
  8
PRO-TBC
  10
122042.26
  20
120473.78
  0
VERTEX
  8
PRO-TBC
  10
122081.21
  20
120472.15
  0
VERTEX
  8
PRO-TBC
  10
122148.86
  20
120450.72
  0
VERTEX
  8
PRO-TBC
  10
122189.86
  20
120424.35
  0
VERTEX
  8
PRO-TBC
  10
122216.81
  20
120430.19
  0
VERTEX
  8
PRO-TBC
  10
122229.86
  20
120450.49
  0
VERTEX
  8
PRO-TBC
  10
122631.47
  20
120503.54
  0
VERTEX
  8
PRO-TBC
  10
122746.97
  20
120446.56
  0
SEQEND
  8
PRO-TBC
  0
POLYLINE
  8
PRO-TBC
  66
1
 62
7
 39
1
  0
VERTEX
  8
PRO-TBC
  10
121867.39
  20
120482.38
  0
VERTEX
  8
PRO-TBC
  10
121885.87
  20
120480.32
  0
VERTEX
  8
PRO-TBC
  10
121972.32
  20
120476.70
  0
VERTEX
  8
PRO-TBC
  10
121992.61
  20
120495.37
  0
VERTEX
  8
PRO-TBC
  10
121994.07
  20
120530.18
  0
VERTEX
  8
PRO-TBC
  10
122015.50
  20
120597.84
  0
VERTEX
  8
PRO-TBC
  10
122038.92
  20
120634.24
  0
SEQEND
  8
PRO-TBC
  0
POLYLINE
  8
PRO-TBC
  66
1
 62
7
 39
1
  0
VERTEX
  8
PRO-TBC
  10
121983.65
  20
120109.26
  0
VERTEX
  8
PRO-TBC
  10
122089.29
  20
120231.99
  0
VERTEX
  8
PRO-TBC
  10
122178.93
  20
120371.33
  0
VERTEX
  8
PRO-TBC
  10
122173.08
  20
120398.28
  0
VERTEX
  8
PRO-TBC
  10
122132.09
  20
120424.65
  0
VERTEX
  8
PRO-TBC
  10
122079.91
  20
120441.18
  0
VERTEX
  8
PRO-TBC
  10
121884.57
  20
120449.35
  0
VERTEX
  8
PRO-TBC
  10
121861.83
  20
120451.88
  0
SEQEND
  8
PRO-TBC
  0
POLYLINE
  8
PL
  66
1
 62
4
 39
1
  0
VERTEX
  8
PL
  10
121820.24
  20
120505.97
  0
VERTEX
  8
PL
  10
121868.19
  20
120486.81
  0
SEQEND
  8
PL
  0
POLYLINE
  8
LOTS
  30
0
  66
1
 62
2
 39
1
  0
VERTEX
  8
LOTS
  10
122604.23
  20
120306.84
  0
VERTEX
  8
LOTS
  10
122721.94
  20
120252.38
  0
SEQEND
  8
LOTS
  0
POLYLINE
  8
LOTS
  30
0
  66
1
 62
2
 39
1
  0
VERTEX
  8
LOTS
  10
122067.22
  20
120612.62
  0
VERTEX
  8
LOTS
  10
122159.73
  20
120553.10
  0
SEQEND
  8
LOTS
  0
POLYLINE
  8
LOTS
  30
0
  66
1
 62
2
 39
1
  0
VERTEX
  8
LOTS
  10
121893.02
  20
120619.08
  0
VERTEX
  8
LOTS
  10
121995.14
  20
120564.02
  0
SEQEND
  8
LOTS
  0
POLYLINE
  8
PL
  30
0
  66
1
 62
4
 39
1
  0
VERTEX
  8
PL
  10
122546.78
  20
119812.59
  0
VERTEX
  8
PL
  10
122674.09
  20
119844.44
  0
SEQEND
  8
PL
  0
POLYLINE
  8
LOTS
  30
0
  66
1
 62
2
 39
1
  0
VERTEX
  8
LOTS
  10
122526.75
  20
120144.63
  0
VERTEX
  8
LOTS
  10
122709.09
  20
120142.83
  0
SEQEND
  8
LOTS
  0
POLYLINE
  8
LOTS
  30
0
  66
1
 62
2
 39
1
  0
VERTEX
  8
LOTS
  10
122325.21
  20
120035.62
  0
VERTEX
  8
LOTS
  10
122325.21
  20
120035.62
  0
SEQEND
  8
LOTS
  0
POLYLINE
  8
LOTS
  30
0
  66
1
 62
2
 39
1
  0
VERTEX
  8
LOTS
  10
122164.46
  20
120113.07
  0
VERTEX
  8
LOTS
  10
122099.49
  20
120160.13
  0
SEQEND
  8
LOTS
  0
POLYLINE
  8
LOTS
  30
0
  66
1
 62
2
 39
1
  0
VERTEX
  8
LOTS
  10
122259.72
  20
120431.28
  0
VERTEX
  8
LOTS
  10
122243.89
  20
120406.68
  0
SEQEND
  8
LOTS
  0
POLYLINE
  8
LOTS
  30
0
  66
1
 62
2
 39
1
  0
VERTEX
  8
LOTS
  10
122122.96
  20
120192.52
  0
VERTEX
  8
LOTS
  10
122187.92
  20
120145.47
  0
SEQEND
  8
LOTS
  0
POLYLINE
  8
LOTS
  30
0
  66
1
 62
2
 39
1
  0
VERTEX
  8
LOTS
  10
122377.23
  20
120058.93
  0
VERTEX
  8
LOTS
  10
122452.89
  20
120121.06
  0
SEQEND
  8
LOTS
  0
POLYLINE
  8
LOTS
  30
0
  66
1
 62
2
 39
1
  0
VERTEX
  8
LOTS
  10
122029.54
  20
120528.70
  0
VERTEX
  8
LOTS
  10
122028.08
  20
120493.89
  0
SEQEND
  8
LOTS
  0
POLYLINE
  8
LOTS
  30
0
  66
1
 62
2
 39
1
  0
VERTEX
  8
LOTS
  10
122042.44
  20
120478.28
  0
VERTEX
  8
LOTS
  10
122081.40
  20
120476.65
  0
SEQEND
  8
LOTS
  0
POLYLINE
  8
LOTS
  30
0
  66
1
 62
2
 39
1
  0
VERTEX
  8
LOTS
  10
122151.30
  20
120454.51
  0
VERTEX
  8
LOTS
  10
122192.29
  20
120428.13
  0
SEQEND
  8
LOTS
  0
POLYLINE
  8
LOTS
  30
0
  66
1
 62
2
 39
1
  0
VERTEX
  8
LOTS
  10
122213.02
  20
120432.63
  0
VERTEX
  8
LOTS
  10
122226.08
  20
120452.92
  0
SEQEND
  8
LOTS
  0
POLYLINE
  8
LOTS
  30
0
  66
1
 62
2
 39
1
  0
VERTEX
  8
LOTS
  10
121886.06
  20
120484.82
  0
VERTEX
  8
LOTS
  10
121972.51
  20
120481.20
  0
SEQEND
  8
LOTS
  0
POLYLINE
  8
LOTS
  30
0
  66
1
 62
2
 39
1
  0
VERTEX
  8
LOTS
  10
121988.12
  20
120495.56
  0
VERTEX
  8
LOTS
  10
121989.57
  20
120530.37
  0
SEQEND
  8
LOTS
  0
POLYLINE
  8
LOTS
  30
0
  66
1
 62
2
 39
1
  0
VERTEX
  8
LOTS
  10
122011.72
  20
120600.27
  0
VERTEX
  8
LOTS
  10
122038.77
  20
120642.32
  0
SEQEND
  8
LOTS
  0
POLYLINE
  8
LOTS
  30
0
  66
1
 62
2
 39
1
  0
VERTEX
  8
LOTS
  10
122058.75
  20
119774.64
  0
VERTEX
  8
LOTS
  10
122082.33
  20
119784.13
  0
SEQEND
  8
LOTS
  0
POLYLINE
  8
LOTS
  30
0
  66
1
 62
2
 39
1
  0
VERTEX
  8
LOTS
  10
122165.99
  20
119833.71
  0
VERTEX
  8
LOTS
  10
122260.58
  20
119911.38
  0
SEQEND
  8
LOTS
  0
POLYLINE
  8
LOTS
  30
0
  66
1
 62
2
 39
1
  0
VERTEX
  8
LOTS
  10
122260.58
  20
119911.38
  0
VERTEX
  8
LOTS
  10
122355.40
  20
119989.24
  0
SEQEND
  8
LOTS
  0
POLYLINE
  8
LOTS
  30
0
  66
1
 62
2
 39
1
  0
VERTEX
  8
LOTS
  10
122355.40
  20
119989.24
  0
VERTEX
  8
LOTS
  10
122445.00
  20
120062.82
  0
SEQEND
  8
LOTS
  0
POLYLINE
  8
LOTS
  30
0
  66
1
 62
2
 39
1
  0
VERTEX
  8
LOTS
  10
122445.00
  20
120062.82
  0
VERTEX
  8
LOTS
  10
122478.28
  20
120090.15
  0
SEQEND
  8
LOTS
  0
POLYLINE
  8
LOTS
  30
0
  66
1
 62
2
 39
1
  0
VERTEX
  8
LOTS
  10
122236.42
  20
119943.30
  0
VERTEX
  8
LOTS
  10
122323.13
  20
120014.51
  0
SEQEND
  8
LOTS
  0
POLYLINE
  8
LOTS
  30
0
  66
1
 62
2
 39
1
  0
VERTEX
  8
LOTS
  10
122151.73
  20
119873.76
  0
VERTEX
  8
LOTS
  10
122236.42
  20
119943.30
  0
SEQEND
  8
LOTS
  0
POLYLINE
  8
LOTS
  30
0
  66
1
 62
2
 39
1
  0
VERTEX
  8
LOTS
  10
122054.01
  20
119815.85
  0
VERTEX
  8
LOTS
  10
122067.40
  20
119821.24
  0
SEQEND
  8
LOTS
  0
POLYLINE
  8
LOTS
  30
0
  66
1
 62
2
 39
1
  0
VERTEX
  8
LOTS
  10
122176.25
  20
120301.55
  0
VERTEX
  8
LOTS
  10
122119.14
  20
120212.79
  0
SEQEND
  8
LOTS
  0
POLYLINE
  8
LOTS
  30
0
  66
1
 62
2
 39
1
  0
VERTEX
  8
LOTS
  10
122243.89
  20
120406.68
  0
VERTEX
  8
LOTS
  10
122176.25
  20
120301.55
  0
SEQEND
  8
LOTS
  0
POLYLINE
  8
LOTS
  30
0
  66
1
 62
2
 39
1
  0
VERTEX
  8
LOTS
  10
122067.22
  20
120612.62
  0
VERTEX
  8
LOTS
  10
122045.35
  20
120578.63
  0
SEQEND
  8
LOTS
  0
POLYLINE
  8
LOTS
  30
0
  66
1
 62
2
 39
1
  0
VERTEX
  8
LOTS
  10
122081.13
  20
120634.24
  0
VERTEX
  8
LOTS
  10
122067.22
  20
120612.62
  0
SEQEND
  8
LOTS
  0
POLYLINE
  8
LOTS
  30
0
  66
1
 62
2
 39
1
  0
VERTEX
  8
LOTS
  10
121884.38
  20
120444.85
  0
VERTEX
  8
LOTS
  10
121959.48
  20
120441.71
  0
SEQEND
  8
LOTS
  0
POLYLINE
  8
LOTS
  30
0
  66
1
 62
2
 39
1
  0
VERTEX
  8
LOTS
  10
122129.65
  20
120420.87
  0
VERTEX
  8
LOTS
  10
122170.65
  20
120394.49
  0
SEQEND
  8
LOTS
  0
POLYLINE
  8
LOTS
  30
0
  66
1
 62
2
 39
1
  0
VERTEX
  8
LOTS
  10
122175.15
  20
120373.76
  0
VERTEX
  8
LOTS
  10
122124.30
  20
120294.73
  0
SEQEND
  8
LOTS
  0
POLYLINE
  8
LOTS
  30
0
  66
1
 62
2
 39
1
  0
VERTEX
  8
LOTS
  10
122124.30
  20
120294.73
  0
VERTEX
  8
LOTS
  10
122085.50
  20
120234.43
  0
SEQEND
  8
LOTS
  0
POLYLINE
  8
LOTS
  30
0
  66
1
 62
2
 39
1
  0
VERTEX
  8
LOTS
  10
122055.40
  20
120437.70
  0
VERTEX
  8
LOTS
  10
122079.72
  20
120436.68
  0
SEQEND
  8
LOTS
  0
POLYLINE
  8
LOTS
  30
0
  66
1
 62
2
 39
1
  0
VERTEX
  8
LOTS
  10
121959.48
  20
120441.71
  0
VERTEX
  8
LOTS
  10
122055.40
  20
120437.70
  0
SEQEND
  8
LOTS
  0
POLYLINE
  8
EASEMENT
  66
1
 62
7
 39
1
  0
VERTEX
  8
EASEMENT
  10
121911.69
  20
120634.24
  0
VERTEX
  8
EASEMENT
  10
121832.05
  20
120510.46
  0
VERTEX
  8
EASEMENT
  10
121886.47
  20
120494.81
  0
VERTEX
  8
EASEMENT
  10
121972.92
  20
120491.19
  0
VERTEX
  8
EASEMENT
  10
121978.13
  20
120495.98
  0
VERTEX
  8
EASEMENT
  10
121979.58
  20
120530.79
  0
VERTEX
  8
EASEMENT
  10
122003.31
  20
120605.68
  0
VERTEX
  8
EASEMENT
  10
122021.68
  20
120634.24
  0
SEQEND
  8
EASEMENT
  0
POLYLINE
  8
EASEMENT
  66
1
 62
7
 39
1
  0
VERTEX
  8
EASEMENT
  10
122093.03
  20
120634.24
  0
VERTEX
  8
EASEMENT
  10
122053.76
  20
120573.22
  0
VERTEX
  8
EASEMENT
  10
122039.53
  20
120528.28
  0
VERTEX
  8
EASEMENT
  10
122038.08
  20
120493.47
  0
VERTEX
  8
EASEMENT
  10
122042.86
  20
120488.27
  0
VERTEX
  8
EASEMENT
  10
122081.81
  20
120486.64
  0
VERTEX
  8
EASEMENT
  10
122156.71
  20
120462.92
  0
VERTEX
  8
EASEMENT
  10
122197.70
  20
120436.54
  0
VERTEX
  8
EASEMENT
  10
122204.61
  20
120438.04
  0
VERTEX
  8
EASEMENT
  10
122217.67
  20
120458.34
  0
VERTEX
  8
EASEMENT
  10
122641.20
  20
120514.28
  0
VERTEX
  8
EASEMENT
  10
122741.03
  20
120462.56
  0
VERTEX
  8
EASEMENT
  10
122750.01
  20
120598.81
  0
VERTEX
  8
EASEMENT
  10
122675.49
  20
120634.24
  0
SEQEND
  8
EASEMENT
  0
POLYLINE
  8
PRO-TBC
  66
1
 62
7
 39
1
  0
VERTEX
  8
PRO-TBC
  10
122088.36
  20
120169.18
  0
VERTEX
  8
PRO-TBC
  10
122107.94
  20
120195.99
  0
VERTEX
  8
PRO-TBC
  10
122184.40
  20
120140.61
  0
VERTEX
  8
PRO-TBC
  10
122285.31
  20
120096.72
  0
VERTEX
  8
PRO-TBC
  10
122351.48
  20
120057.20
  0
VERTEX
  8
PRO-TBC
  10
122381.04
  20
120054.29
  0
VERTEX
  8
PRO-TBC
  10
122456.70
  20
120116.43
  0
VERTEX
  8
PRO-TBC
  10
122464.32
  20
120131.21
  0
VERTEX
  8
PRO-TBC
  10
122490.46
  20
120099.39
  0
VERTEX
  8
PRO-TBC
  10
122474.47
  20
120094.79
  0
VERTEX
  8
PRO-TBC
  10
122162.18
  20
119838.34
  0
VERTEX
  8
PRO-TBC
  10
122080.09
  20
119789.69
  0
VERTEX
  8
PRO-TBC
  10
122012.07
  20
119762.34
  0
VERTEX
  8
PRO-TBC
  10
121981.64
  20
119743.96
  0
VERTEX
  8
PRO-TBC
  10
121965.14
  20
119729.94
  0
VERTEX
  8
PRO-TBC
  10
121884.51
  20
119764.32
  0
VERTEX
  8
PRO-TBC
  10
121883.21
  20
119785.75
  0
VERTEX
  8
PRO-TBC
  10
121875.40
  20
119820.44
  0
VERTEX
  8
PRO-TBC
  10
121857.06
  20
119866.01
  0
VERTEX
  8
PRO-TBC
  10
121883.04
  20
119876.46
  0
VERTEX
  8
PRO-TBC
  10
121916.64
  20
119792.93
  0
VERTEX
  8
PRO-TBC
  10
121963.47
  20
119772.97
  0
VERTEX
  8
PRO-TBC
  10
122069.64
  20
119815.67
  0
VERTEX
  8
PRO-TBC
  10
122144.41
  20
119859.98
  0
VERTEX
  8
PRO-TBC
  10
122326.94
  20
120009.87
  0
VERTEX
  8
PRO-TBC
  10
122329.84
  20
120039.43
  0
VERTEX
  8
PRO-TBC
  10
122279.93
  20
120069.24
  0
VERTEX
  8
PRO-TBC
  10
122167.98
  20
120117.93
  0
VERTEX
  8
PRO-TBC
  10
122102.61
  20
120165.28
  0
VERTEX
  8
PRO-TBC
  10
122088.36
  20
120169.18
  0
SEQEND
  8
PRO-TBC
  0
POLYLINE
  8
PRO-TBC
  30
0
  66
1
 62
7
 39
1
  0
VERTEX
  8
PRO-TBC
  10
122090.75
  20
120162.98
  0
VERTEX
  8
PRO-TBC
  10
122089.81
  20
120167.46
  0
SEQEND
  8
PRO-TBC
  0
POLYLINE
  8
PRO-TBC
  30
0
  66
1
 62
7
 39
1
  0
VERTEX
  8
PRO-TBC
  10
122086.78
  20
120162.44
  0
VERTEX
  8
PRO-TBC
  10
122085.85
  20
120166.87
  0
SEQEND
  8
PRO-TBC
  0
POLYLINE
  8
PRO-TBC
  30
0
  66
1
 62
7
 39
1
  0
VERTEX
  8
PRO-TBC
  10
122090.75
  20
120162.98
  0
VERTEX
  8
PRO-TBC
  10
122093.56
  20
120167.27
  0
SEQEND
  8
PRO-TBC
  0
POLYLINE
  8
PRO-TBC
  30
0
  66
1
 62
7
 39
1
  0
VERTEX
  8
PRO-TBC
  10
122086.78
  20
120162.44
  0
VERTEX
  8
PRO-TBC
  10
122082.12
  20
120165.49
  0
SEQEND
  8
PRO-TBC
  0
POLYLINE
  8
PRO-TBC
  30
0
  66
1
 62
7
 39
1
  0
VERTEX
  8
PRO-TBC
  10
122117.52
  20
120199.94
  0
VERTEX
  8
PRO-TBC
  10
122112.97
  20
120199.43
  0
SEQEND
  8
PRO-TBC
  0
POLYLINE
  8
PRO-TBC
  30
0
  66
1
 62
7
 39
1
  0
VERTEX
  8
PRO-TBC
  10
122116.79
  20
120203.88
  0
VERTEX
  8
PRO-TBC
  10
122112.30
  20
120203.38
  0
SEQEND
  8
PRO-TBC
  0
POLYLINE
  8
PRO-TBC
  30
0
  66
1
 62
7
 39
1
  0
VERTEX
  8
PRO-TBC
  10
122117.52
  20
120199.94
  0
VERTEX
  8
PRO-TBC
  10
122114.32
  20
120195.93
  0
SEQEND
  8
PRO-TBC
  0
POLYLINE
  8
PRO-TBC
  30
0
  66
1
 62
7
 39
1
  0
VERTEX
  8
PRO-TBC
  10
122116.79
  20
120203.88
  0
VERTEX
  8
PRO-TBC
  10
122112.44
  20
120207.36
  0
SEQEND
  8
PRO-TBC
  0
POLYLINE
  8
PRO-TBC
  30
0
  66
1
 62
7
 39
1
  0
VERTEX
  8
PRO-TBC
  10
122181.06
  20
120387.95
  0
VERTEX
  8
PRO-TBC
  10
122176.64
  20
120386.98
  0
SEQEND
  8
PRO-TBC
  0
POLYLINE
  8
PRO-TBC
  30
0
  66
1
 62
7
 39
1
  0
VERTEX
  8
PRO-TBC
  10
122181.91
  20
120384.04
  0
VERTEX
  8
PRO-TBC
  10
122177.48
  20
120383.08
  0
SEQEND
  8
PRO-TBC
  0
POLYLINE
  8
PRO-TBC
  30
0
  66
1
 62
7
 39
1
  0
VERTEX
  8
PRO-TBC
  10
122179.51
  20
120391.46
  0
VERTEX
  8
PRO-TBC
  10
122176.64
  20
120386.98
  0
SEQEND
  8
PRO-TBC
  0
POLYLINE
  8
PRO-TBC
  30
0
  66
1
 62
7
 39
1
  0
VERTEX
  8
PRO-TBC
  10
122181.96
  20
120380.20
  0
VERTEX
  8
PRO-TBC
  10
122177.48
  20
120383.08
  0
SEQEND
  8
PRO-TBC
  0
POLYLINE
  8
PRO-TBC
  30
0
  66
1
 62
7
 39
1
  0
VERTEX
  8
PRO-TBC
  10
122202.57
  20
120421.37
  0
VERTEX
  8
PRO-TBC
  10
122201.60
  20
120425.79
  0
SEQEND
  8
PRO-TBC
  0
POLYLINE
  8
PRO-TBC
  30
0
  66
1
 62
7
 39
1
  0
VERTEX
  8
PRO-TBC
  10
122206.47
  20
120422.21
  0
VERTEX
  8
PRO-TBC
  10
122205.51
  20
120426.64
  0
SEQEND
  8
PRO-TBC
  0
POLYLINE
  8
PRO-TBC
  30
0
  66
1
 62
7
 39
1
  0
VERTEX
  8
PRO-TBC
  10
122198.73
  20
120421.32
  0
VERTEX
  8
PRO-TBC
  10
122201.60
  20
120425.79
  0
SEQEND
  8
PRO-TBC
  0
POLYLINE
  8
PRO-TBC
  30
0
  66
1
 62
7
 39
1
  0
VERTEX
  8
PRO-TBC
  10
122209.99
  20
120423.76
  0
VERTEX
  8
PRO-TBC
  10
122205.51
  20
120426.64
  0
SEQEND
  8
PRO-TBC
  0
POLYLINE
  8
PRO-TBC
  66
1
 62
7
 39
1
  0
VERTEX
  8
PRO-TBC
  10
122074.00
  20
120634.24
  0
VERTEX
  8
PRO-TBC
  10
122040.31
  20
120581.88
  0
VERTEX
  8
PRO-TBC
  10
122023.54
  20
120528.95
  0
VERTEX
  8
PRO-TBC
  10
122021.46
  20
120479.15
  0
VERTEX
  8
PRO-TBC
  10
122021.46
  20
120479.15
  0
VERTEX
  8
PRO-TBC
  10
121987.19
  20
120480.59
  0
VERTEX
  8
PRO-TBC
  10
121994.11
  20
120495.31
  0
VERTEX
  8
PRO-TBC
  10
121995.57
  20
120530.12
  0
VERTEX
  8
PRO-TBC
  10
122016.76
  20
120597.03
  0
VERTEX
  8
PRO-TBC
  10
122040.71
  20
120634.24
  0
SEQEND
  8
PRO-TBC
  0
POLYLINE
  8
DIM
  30
0
  66
1
 62
7
 39
1
  0
VERTEX
  8
DIM
  10
122424.22
  20
120078.89
  0
VERTEX
  8
DIM
  10
122422.28
  20
120081.28
  0
SEQEND
  8
DIM
  0
POLYLINE
  8
PRO-TBC
  30
0
  66
1
 62
7
 39
1
  0
VERTEX
  8
PRO-TBC
  10
122328.60
  20
120026.64
  0
VERTEX
  8
PRO-TBC
  10
122333.11
  20
120026.19
  0
SEQEND
  8
PRO-TBC
  0
POLYLINE
  8
PRO-TBC
  30
0
  66
1
 62
7
 39
1
  0
VERTEX
  8
PRO-TBC
  10
122328.21
  20
120022.66
  0
VERTEX
  8
PRO-TBC
  10
122332.72
  20
120022.21
  0
SEQEND
  8
PRO-TBC
  0
POLYLINE
  8
PRO-TBC
  30
0
  66
1
 62
7
 39
1
  0
VERTEX
  8
PRO-TBC
  10
122328.60
  20
120026.64
  0
VERTEX
  8
PRO-TBC
  10
122332.72
  20
120030.01
  0
SEQEND
  8
PRO-TBC
  0
POLYLINE
  8
PRO-TBC
  30
0
  66
1
 62
7
 39
1
  0
VERTEX
  8
PRO-TBC
  10
122328.21
  20
120022.66
  0
VERTEX
  8
PRO-TBC
  10
122331.59
  20
120018.54
  0
SEQEND
  8
PRO-TBC
  0
POLYLINE
  8
PRO-TBC
  30
0
  66
1
 62
7
 39
1
  0
VERTEX
  8
PRO-TBC
  10
122364.27
  20
120055.92
  0
VERTEX
  8
PRO-TBC
  10
122363.82
  20
120051.41
  0
SEQEND
  8
PRO-TBC
  0
POLYLINE
  8
PRO-TBC
  30
0
  66
1
 62
7
 39
1
  0
VERTEX
  8
PRO-TBC
  10
122364.27
  20
120055.92
  0
VERTEX
  8
PRO-TBC
  10
122360.15
  20
120052.55
  0
SEQEND
  8
PRO-TBC
  0
POLYLINE
  8
PRO-TBC
  30
0
  66
1
 62
7
 39
1
  0
VERTEX
  8
PRO-TBC
  10
122368.25
  20
120055.53
  0
VERTEX
  8
PRO-TBC
  10
122371.63
  20
120051.42
  0
SEQEND
  8
PRO-TBC
  0
POLYLINE
  8
PRO-TBC
  30
0
  66
1
 62
7
 39
1
  0
VERTEX
  8
PRO-TBC
  10
122368.25
  20
120055.53
  0
VERTEX
  8
PRO-TBC
  10
122367.81
  20
120051.02
  0
SEQEND
  8
PRO-TBC
  0
POLYLINE
  8
PRO-TBC
  30
0
  66
1
 62
7
 39
1
  0
VERTEX
  8
PRO-TBC
  10
121981.72
  20
120483.89
  0
VERTEX
  8
PRO-TBC
  10
121984.79
  20
120480.56
  0
SEQEND
  8
PRO-TBC
  0
POLYLINE
  8
PRO-TBC
  30
0
  66
1
 62
7
 39
1
  0
VERTEX
  8
PRO-TBC
  10
121984.67
  20
120486.60
  0
VERTEX
  8
PRO-TBC
  10
121987.80
  20
120483.19
  0
SEQEND
  8
PRO-TBC
  0
POLYLINE
  8
PRO-TBC
  30
0
  66
1
 62
7
 39
1
  0
VERTEX
  8
PRO-TBC
  10
121981.72
  20
120483.89
  0
VERTEX
  8
PRO-TBC
  10
121981.50
  20
120478.57
  0
SEQEND
  8
PRO-TBC
  0
POLYLINE
  8
PRO-TBC
  30
0
  66
1
 62
7
 39
1
  0
VERTEX
  8
PRO-TBC
  10
121984.67
  20
120486.60
  0
VERTEX
  8
PRO-TBC
  10
121989.98
  20
120486.38
  0
SEQEND
  8
PRO-TBC
  0
POLYLINE
  8
PRO-TBC
  30
0
  66
1
 62
7
 39
1
  0
VERTEX
  8
PRO-TBC
  10
122033.48
  20
120481.73
  0
VERTEX
  8
PRO-TBC
  10
122030.15
  20
120478.66
  0
SEQEND
  8
PRO-TBC
  0
POLYLINE
  8
PRO-TBC
  30
0
  66
1
 62
7
 39
1
  0
VERTEX
  8
PRO-TBC
  10
122030.78
  20
120484.67
  0
VERTEX
  8
PRO-TBC
  10
122027.36
  20
120481.53
  0
SEQEND
  8
PRO-TBC
  0
POLYLINE
  8
PRO-TBC
  30
0
  66
1
 62
7
 39
1
  0
VERTEX
  8
PRO-TBC
  10
122033.48
  20
120481.73
  0
VERTEX
  8
PRO-TBC
  10
122033.26
  20
120476.41
  0
SEQEND
  8
PRO-TBC
  0
POLYLINE
  8
PRO-TBC
  30
0
  66
1
 62
7
 39
1
  0
VERTEX
  8
PRO-TBC
  10
122030.78
  20
120484.67
  0
VERTEX
  8
PRO-TBC
  10
122025.46
  20
120484.89
  0
SEQEND
  8
PRO-TBC
  0
POLYLINE
  8
DIM
  66
1
 62
7
 39
1
  0
VERTEX
  8
DIM
  10
122525.45
  20
120097.04
  0
VERTEX
  8
DIM
  10
122533.71
  20
120106.63
  0
SEQEND
  8
DIM
  0
POLYLINE
  8
PRO-TBC
  66
1
 62
7
 39
1
  0
VERTEX
  8
PRO-TBC
  10
122004.45
  20
120085.60
  0
VERTEX
  8
PRO-TBC
  10
122075.94
  20
120159.95
  0
VERTEX
  8
PRO-TBC
  10
122101.84
  20
120163.37
  0
VERTEX
  8
PRO-TBC
  10
122166.80
  20
120116.31
  0
VERTEX
  8
PRO-TBC
  10
122279.54
  20
120067.28
  0
VERTEX
  8
PRO-TBC
  10
122328.30
  20
120038.16
  0
VERTEX
  8
PRO-TBC
  10
122325.67
  20
120011.42
  0
VERTEX
  8
PRO-TBC
  10
122143.14
  20
119861.53
  0
VERTEX
  8
PRO-TBC
  10
122068.89
  20
119817.53
  0
VERTEX
  8
PRO-TBC
  10
121962.73
  20
119774.82
  0
VERTEX
  8
PRO-TBC
  10
121918.50
  20
119793.68
  0
VERTEX
  8
PRO-TBC
  10
121884.90
  20
119877.21
  0
SEQEND
  8
PRO-TBC
  0
POLYLINE
  8
PRO-TBC
  66
1
 62
7
 39
1
  0
VERTEX
  8
PRO-TBC
  10
122741.42
  20
120416.06
  0
VERTEX
  8
PRO-TBC
  10
122610.64
  20
120480.57
  0
VERTEX
  8
PRO-TBC
  10
122255.93
  20
120433.72
  0
VERTEX
  8
PRO-TBC
  10
122115.36
  20
120215.22
  0
VERTEX
  8
PRO-TBC
  10
122120.32
  20
120188.88
  0
VERTEX
  8
PRO-TBC
  10
122185.28
  20
120141.82
  0
VERTEX
  8
PRO-TBC
  10
122285.60
  20
120098.19
  0
VERTEX
  8
PRO-TBC
  10
122352.64
  20
120058.15
  0
VERTEX
  8
PRO-TBC
  10
122380.09
  20
120055.45
  0
VERTEX
  8
PRO-TBC
  10
122455.75
  20
120117.58
  0
VERTEX
  8
PRO-TBC
  10
122462.83
  20
120131.31
  0
VERTEX
  8
PRO-TBC
  10
122490.27
  20
120097.90
  0
VERTEX
  8
PRO-TBC
  10
122475.42
  20
120093.63
  0
VERTEX
  8
PRO-TBC
  10
122163.13
  20
119837.18
  0
VERTEX
  8
PRO-TBC
  10
122080.65
  20
119788.30
  0
VERTEX
  8
PRO-TBC
  10
122012.63
  20
119760.94
  0
VERTEX
  8
PRO-TBC
  10
121982.61
  20
119742.82
  0
VERTEX
  8
PRO-TBC
  10
121966.11
  20
119728.80
  0
VERTEX
  8
PRO-TBC
  10
121883.02
  20
119764.23
  0
VERTEX
  8
PRO-TBC
  10
121881.71
  20
119785.66
  0
VERTEX
  8
PRO-TBC
  10
121874.00
  20
119819.88
  0
VERTEX
  8
PRO-TBC
  10
121855.67
  20
119865.45
  0
SEQEND
  8
PRO-TBC
  0
POLYLINE
  8
PRO-TBC
  66
1
 62
7
 39
1
  0
VERTEX
  8
PRO-TBC
  10
121884.43
  20
119877.02
  0
VERTEX
  8
PRO-TBC
  10
121918.03
  20
119793.49
  0
VERTEX
  8
PRO-TBC
  10
121962.91
  20
119774.36
  0
VERTEX
  8
PRO-TBC
  10
122069.08
  20
119817.06
  0
VERTEX
  8
PRO-TBC
  10
122143.46
  20
119861.14
  0
VERTEX
  8
PRO-TBC
  10
122325.99
  20
120011.03
  0
VERTEX
  8
PRO-TBC
  10
122328.68
  20
120038.47
  0
VERTEX
  8
PRO-TBC
  10
122279.64
  20
120067.77
  0
VERTEX
  8
PRO-TBC
  10
122167.10
  20
120116.72
  0
VERTEX
  8
PRO-TBC
  10
122102.13
  20
120163.77
  0
VERTEX
  8
PRO-TBC
  10
122075.55
  20
120160.27
  0
VERTEX
  8
PRO-TBC
  10
122004.12
  20
120085.98
  0
SEQEND
  8
PRO-TBC
  0
POLYLINE
  8
PRO-TBC
  66
1
 62
7
 39
1
  0
VERTEX
  8
PRO-TBC
  10
121855.21
  20
119865.27
  0
VERTEX
  8
PRO-TBC
  10
121873.54
  20
119819.69
  0
VERTEX
  8
PRO-TBC
  10
121881.21
  20
119785.63
  0
VERTEX
  8
PRO-TBC
  10
121882.52
  20
119764.20
  0
VERTEX
  8
PRO-TBC
  10
121966.44
  20
119728.42
  0
VERTEX
  8
PRO-TBC
  10
121982.94
  20
119742.44
  0
VERTEX
  8
PRO-TBC
  10
122012.82
  20
119760.48
  0
VERTEX
  8
PRO-TBC
  10
122080.83
  20
119787.84
  0
VERTEX
  8
PRO-TBC
  10
122163.45
  20
119836.80
  0
VERTEX
  8
PRO-TBC
  10
122475.74
  20
120093.24
  0
VERTEX
  8
PRO-TBC
  10
122490.20
  20
120097.40
  0
VERTEX
  8
PRO-TBC
  10
122462.33
  20
120131.35
  0
VERTEX
  8
PRO-TBC
  10
122455.43
  20
120117.97
  0
VERTEX
  8
PRO-TBC
  10
122379.77
  20
120055.84
  0
VERTEX
  8
PRO-TBC
  10
122353.03
  20
120058.46
  0
VERTEX
  8
PRO-TBC
  10
122285.70
  20
120098.68
  0
VERTEX
  8
PRO-TBC
  10
122185.58
  20
120142.23
  0
VERTEX
  8
PRO-TBC
  10
122120.61
  20
120189.28
  0
VERTEX
  8
PRO-TBC
  10
122115.78
  20
120214.95
  0
VERTEX
  8
PRO-TBC
  10
122256.35
  20
120433.45
  0
VERTEX
  8
PRO-TBC
  10
122610.31
  20
120480.20
  0
VERTEX
  8
PRO-TBC
  10
122741.33
  20
120415.57
  0
SEQEND
  8
PRO-TBC
  0
INSERT
  8
FeatureAttribs
  2
FEATURE
  41
1
  42
1
  43
1
  50
0
  10
122087.01
  20
120163.73
 66
1
  0
ATTRIB
  8
FeatureAttribs
 70
0
  1
HC
  2
NAME
  10
122087.01
  20
120163.73
 40
1.67964
  0
SEQEND
  0
POINT
  8
PRO-TBC
  30
0
  10
122087.01
  20
120163.73
  0
INSERT
  8
FeatureAttribs
  2
FEATURE
  41
1
  42
1
  43
1
  50
0
  10
122115.64
  20
120203.26
 66
1
  0
ATTRIB
  8
FeatureAttribs
 70
0
  1
HC
  2
NAME
  10
122115.64
  20
120203.26
 40
1.67964
  0
SEQEND
  0
POINT
  8
PRO-TBC
  30
0
  10
122115.64
  20
120203.26
  0
INSERT
  8
FeatureAttribs
  2
FEATURE
  41
1
  42
1
  43
1
  50
0
  10
122178.70
  20
120383.80
 66
1
  0
ATTRIB
  8
FeatureAttribs
 70
0
  1
HC
  2
NAME
  10
122178.70
  20
120383.80
 40
1.67964
  0
SEQEND
  0
POINT
  8
PRO-TBC
  30
0
  10
122178.70
  20
120383.80
  0
INSERT
  8
FeatureAttribs
  2
FEATURE
  41
1
  42
1
  43
1
  50
0
  10
122205.36
  20
120425.24
 66
1
  0
ATTRIB
  8
FeatureAttribs
 70
0
  1
HC
  2
NAME
  10
122205.36
  20
120425.24
 40
1.67964
  0
SEQEND
  0
POINT
  8
PRO-TBC
  30
0
  10
122205.36
  20
120425.24
  0
INSERT
  8
FeatureAttribs
  2
FEATURE
  41
1
  42
1
  43
1
  50
0
  10
122331.14
  20
120022.83
 66
1
  0
ATTRIB
  8
FeatureAttribs
 70
0
  1
HC
  2
NAME
  10
122331.14
  20
120022.83
 40
1.67964
  0
SEQEND
  0
POINT
  8
DIM
  30
0
  10
122331.14
  20
120022.83
  0
INSERT
  8
FeatureAttribs
  2
FEATURE
  41
1
  42
1
  43
1
  50
0
  10
122364.55
  20
120052.99
 66
1
  0
ATTRIB
  8
FeatureAttribs
 70
0
  1
HC
  2
NAME
  10
122364.55
  20
120052.99
 40
1.67964
  0
SEQEND
  0
POINT
  8
DIM
  30
0
  10
122364.55
  20
120052.99
  0
INSERT
  8
FeatureAttribs
  2
FEATURE
  41
1
  42
1
  43
1
  50
0
  10
121982.88
  20
120483.39
 66
1
  0
ATTRIB
  8
FeatureAttribs
 70
0
  1
HC
  2
NAME
  10
121982.88
  20
120483.39
 40
1.67964
  0
SEQEND
  0
POINT
  8
PRO-TBC
  30
0
  10
121982.88
  20
120483.39
  0
INSERT
  8
FeatureAttribs
  2
FEATURE
  41
1
  42
1
  43
1
  50
0
  10
122030.35
  20
120483.61
 66
1
  0
ATTRIB
  8
FeatureAttribs
 70
0
  1
HC
  2
NAME
  10
122030.35
  20
120483.61
 40
1.67964
  0
SEQEND
  0
POINT
  8
PRO-TBC
  30
0
  10
122030.35
  20
120483.61
  0
ENDSEC
  0
EOF
